Queen
1Keep Yourself Alive
2Seven Seas of Rhye
3Killer Queen
4Now I'm Here
5Stone Cold Crazy
6Death on Two Legs
7'39
8Bohemian Rhapsody
9Tie Your Mother Down
10We Will Rock You
11We Are the Champions
12Sheer Heart Attack
13Spread Your Wings
14It's Late
15Fat Bottomed Girls
16Bicycle Race
17Dead on Time
18More of That Jazz
19Dragon Attack
20Save Me
21Under Pressure












keep yourself alive i was told a million times of all the troubles in my way tried to grow a little wiser, little better every day but if i crossed a million rivers and i rode a million miles then i'd still be where i started, bread and butter for a smile well i sold a million mirrors in a shop in alley way but i never saw my face in any window any day well they say your folks are telling you to be a superstar but i tell you just be satisfied to stay right where you are keep yourself alive, keep yourself alive it'll take you all your time and a money, honey you'll survive well i've loved a million women in a belladonic haze and i ate a million dinners brought to me on silver trays give me everything i need to feed my body and my soul and i'll grow a little bigger, maybe that can be my goal i was told a million times of all the people in my way how i had to keep on trying and get better every day but if i crossed a million rivers and i rode a million miles then i'd still be where i started, same as when i started keep yourself alive, keep yourself alive it'll take you all your time and a money, honey you'll survive keep yourself alive, keep yourself alive it'll take you all your time and a money to keep me satisfied do you think you're better every day? no i think i'm two steps nearer to my grave keep yourself alive, keep yourself alive you take your time and take more money, keep yourself alive keep yourself alive, keep yourself alive all you people keep yourself alive keep yourself alive, keep yourself alive it'll take you all your time and money to keep me satisfied keep yourself alive, keep yourself alive all you people keep yourself alive take you all your time and money, honey you'll survive keep you satisfied keep you satisfied
Keep Yourself Alive
basic bass tab


     guitar intro
   |----------------|----------------|
   |----------------|----------------|
   |----------------|----------------|
...|1-111-1111111-11|1-111-111-111/--|

|----------------|  |----------------|
|----------------|x |--------77777\--|
|----------------|9 |----------------|
|5-555-5555555-55|  |----------------|


  theme
|----------------|----------------|----------------|----------------|
|----7-------7---|----7-------7---|----7-------7---|----------------|
|0-------0--0----|0-------0--0----|0-------0--0--0-|--0-7-5---------|
|----------------|----------------|----------------|5---------------|

                         |--------|----------------|----------------|
                         |--------|3-3-3---13-33---|13--3---13--3---|
                         |----3---|----------------|----------------|
                         |3-------|----------------|----------------|

  verse 1
|----------------|----------------|--------2---2---|3---------------|
|3---3--13---3---|--------13--3---|13--3-----------|---00--013--3---|
|----------------|1-1-1-----------|----------------|----------------|
|----------------|----------------|----------------|----------------|

|----------------|--------6-------|----------------|----------------|
|----------------|----6-------6---|--------6-------|----------------|
|3---3---3---3---|4---------------|----6-------6---|7-7-8--89-10----|
|----------------|----------------|4---------------|------------8\--|

  verse 2
|----------------|----------------|--------2---2---|3---------------|
|3---3--13---3---|--------13--3---|13--3-----------|---00--013------|
|----------------|1---1-----------|----------------|------------1---|
|----------------|----------------|----------------|----------------|

|----------------|--------6-------|----------------|----------------|
|----------------|----6-------6---|--------6-------|----------------|
|3---3---3---3---|4---------------|----6-------6---|----------------|
|----------------|----------------|4---------------|.5--5---.5--5---|

  chorus 1
|----------------|----------------|----------------|----------------|
|----------------|----------------|----------------|----------------|
|5---5--055------|5---5-----------|5-------2-------|--------5---5---|
|------------3---|-------055--5---|----6-------3---|5---5-----------|

  theme
|----------------|----------------| |----------------|----------------|
|----------------|----------------| |----------------|----------------|*
|----------------|----------------| |----------------|----------------|*
|----------------|----------------| |----------------|--------55555\--|

|----------------|----------------|----------------|----------------|
|----7-------7---|----7-----------|----------------|----------------|
|0-------0-------|0-------0---0--.|0--.0--.0--.0--.|0--.0--.0--.0---|
|----------------|----------------|----------------|----------------|

|----------------|----------------|--------|----------------|----------------|
|----7-------7---|----------------|--------|----------------|----------------|
|0--0----------0-|--0-7-5---------|5-6-7-8-|8---8---68--8---|68--8---68--8---|
|--------5-------|5---------------|--------|----------------|----------------|








  verse 3
|----------------|----------------|----------------|----------------|
|----------------|----------------|--------7---7--.|8---------------|
|8---8--68---8---|--------68--8---|68--8-----------|---.5--568--8\--|
|----------------|6---6-----------|----------------|----------------|

|----------------|--------6-------|----------------|----------------|
|----------------|----6-------6---|6-------6-------|----------------|
|3---3---3---3---|4---------------|----6-----------|------------5---|
|----------------|----------------|------------4---|5-5-5---55-5----|

  verse 4
|----------------|----------------|
|----------------|----------------|*
|8---8--68---8---|--------68--8---|*
|----------------|6---6-----------|

|--------5-------|--------6-------|----------------|----------------|
|----5-------5---|----6-------6---|--------6-------|--------7-------|
|3---------------|4---------------|----6-------6---|----7-----------|
|----------------|----------------|4---------------|5-----------5---|

  chorus 2
|----------------|----------------|----------------|----------------|
|----------------|----------------|----------------|----------------|
|5--.5--.5-------|5---5-----------|5-------2-------|--------5---5---|
|------------3---|-------.5---5---|----6-------3---|5---5-----------|

  drum solo

  guitar solo
|----------------|----------------|----------------|----------------|
|----------------|----------------|----------------|----------------|
|8---8---68------|8---8-----------|8-------5-------|--------8---8--.|
|------------6---|--------68--8---|----9-------6---|8---8-----------|

|----------------|----------------|----------------|----------------|
|----------------|----------------|----------------|----------------|
|8-8-8-8-8-------|8-8-8-8---------|8-------5-------|--------8-8-----|
|-----------66---|--------8---8---|----9-------6---|8-8-8-------6---|

  chorus 3
|----------------|----------------|----------------|----------------|-
|----------------|----------------|----------------|----------------|--
|5---5--.5-------|5---5-----------|5-------2-------|--------5---5---|7--
|------------3---|-------.5---5---|----2-------3---|5---5-----------|----

   riff
 |--------------------------------|----11--12--13--14--------------|
 |--------------------11--12--13--|14------------------------------|
 |--------11--12--14--------------|--------------------------------|
 |12--14--------------------------|--------------------------------|

  end chorus
|----------------|----------------|----------------|----------------|
|----------------|----------------|----------------|----------------|
|5---5--.5-------|5---5-----------|5-------2-------|-------.5---5---|
|-----------.3---|-------.5--.5---|----2-------3---|5---5-----------|

|----------------|----------------|----------------|----------------|
|----------------|----------------|----------------|----------------|
|8---8--.8-------|8---8-----------|8-------5-------|-------.8-8-8---|
|------------6---|-------.8-8-8---|----9-------6---|8--.8-----------|

|----------------|----------------|----------------|----------------|
|----------------|----------------|----------------|----------------|
|5---5--.5-5-----|5---5-----------|5-------2-------|-------.5---5---|
|------------3---|-------.5--.5---|----2-------3---|5---5-----------|

|----------------|----------------|----------------|----------------|
|----------------|----------------|9--.8--.6-------|----------------|
|2---2--.2--.----|2---2-----------|-----------.7---|-------.2---2---|
|------------0---|-------.2--.2---|----------------|2--.0-----------|

|----------------|
|9-------9-------|
|----------------|
|---.7------.7---|...










seven seas of rhye fear me, you lord and lady preachers i descend upon your earth from the skies i command your very souls, you unbelievers bring before me what is mine - the seven seas of rhye can you hear me you peers and privy councillors i stand before you naked to the eyes i will destroy any man who dares abuse my trust i swear that youll be mine - at the seven seas of rhye sister - i live and lie for you mister - do and i'll die you are mine i possess you belong to you forever storm the master, marathon i'll fly through by flash and thunder fire, i'll survive - i'll survive, i'll survive then i'll defy the laws of nature and come out alive begone with you, you shod and shady senators give out the good, leave out the bad evil cries i challenge the mighty titan and his troubadours and with a smile, i'll take you to the seven seas of rhye
Seven Seas of Rhye
basic bass tab

  intro
|--------|--------|--------|--------|--------|--------|
|--------|--------|--------|--------|--------|--------|
|--------|--------|5-------|--------|--------|--------|
|--------|--------|--------|--------|3-------|--------|

                  |--------|--------|--------|--------|
                  |--------|--------|--------|--------|
                  |5-------|--------|7-------|--------|
                  |--------|--------|--------|5-------|
  verse 1
|----------------|----------------|----------------|
|----------------|----------------|----------------|
|5--.5---5--.5---|5--.5---5--.5---|5---5---5-------|
|----------------|----------------|------------1---|

|----------------|----------------|----------------|----------------|--------|
|----------------|----------------|----------------|----------------|--------|
|----------------|---------------.|5--.5---5---5---|7---------------|--------|
|3--.3--.3--.3--.|3--.3--.3--.3---|----------------|--------5-------|--------|

|----------------|----------------|
|----------------|----------------|
|5--.5-------5---|5-5.5-----------|
|-------------057|----------------|

  verse 2
|----------------|----------------|----------------|
|----------------|----------------|----------------|
|5--.5---5--.5-..|5--.5--.5--.5-..|5--.5--.5-0-----|
|----------------|----------------|------------1---|

|----------------|----------------|----------------|
|----------------|----------------|----------------|
|----------------|---------------.|5--.5---5---5---|
|3--.3--.3--.3--.|3--.3--.3--.3---|----------------|

                 |----------------|----------------|
                 |-------14-14\---|7---------------|
                 |----------------|----------------|
                 |12--------------|----------------|

|----------------|----------------|
|----------------|----------------|
|5--------------.|5---------------|
|----------------|----------------|

  chorus
|----------------|----------------|----------------|----------------|
|----------------|----------------|----------------|------------7-9/|
|5--55\--33-33\--|----------------|5--55\--33-33\--|----------------|
|----------------|3-333-333-333---|----------------|3-333-3-3-------|



  riff
|--------------------------|12-------11-----|9---------------|----------------|
|12--9----9----------9-----|----------------|----------------|----------------|
|------12---12-10-12---10--|----------------|----------------|----------------|
|--------------------------|----------------|----------------|----------------|

|----------------|----------7750--|
|0---------------|--------------50|
|----------------|----------------|
|----------------|----------------|

  solo
|----------------|----------------|----------------|----------------|
|8---8-----------|----------------|--..8-----------|--..8-----------|
|-----------.6---|------------6-..|----------..6---|----------..6---|
|-------.6------.|6-6-6--.6-6-----|6-----..6-----..|6-----..6-----..|

|----------------|----------------|----------------|----------------|
|----------------|----8-----------|0---------------|----------------|
|-----------.6---|------------6---|----------------|----------------|
|6--.6--.6------.|66-6---.6-------|----------------|----------------|

|----------------|----------------|
|----------------|----------------|
|----------------|----------------|
|----------------|------------1---|

  verse 3
|----------------|----------------|----------------|----------------|
|5---5--.5---5-5-|5-5-5-05-5-050--|5-5-5---5-0-5--0|----------------|
|----------------|--------------3-|----------------|3---3--33---2---|
|----------------|----------------|----------------|----------------|

|----------------|----------------|----------------|----------------|
|----------------|----------------|0---------------|----------------|
|0---------2---3-|------4-------4-|----------------|----------------|
|----------------|----------------|----------------|----------------|

  verse 4
|----------------|----------------|----------------|
|----------------|----------------|----------------|
|5--.5---5--.5---|5--.5-5-5--.5-5-|5--.5--.5-------|
|----------------|----------------|-----------.1---|

|----------------|----------------|----------------|
|----------------|----------------|----------------|
|----------------|--------------..|5-..5-..5-..5---|
|3-3-3-..3-3-3-..|3-..3-..3-..3---|----------------|

|----------------|----------------|------------12--|
|----------------|----------------|----------------|
|7-------9-------|10--------------|----------------|
|----------------|----------------|----------------|

|----------------|----------------||----------------|
|0---------------|----------------||----------------|*
|-------.5--.50--|5-5-5-----------||5-5-5-..5--.5-..|*...
|--------------5-|----------------||----------------|










killer queen she keeps moet and chandon in her pretty cabinet 'let them eat cake' she says - just like marie antoinette a built in remedy for khrushchev and kennedy and anytime an invitation you can decline caviar and cigarettes well versed in etiquette extraordinarily nice - she's a killer queen gunpowder gelatine - dynamite with a lazer beam guaranteed to blow your mind recommended at the price - insatiable in appetite - wanna try? to avoid complications, she never kept the same address in conversation, she spoke just like a baroness met a man from china went down to geisha minah then again incidentally if you're that way inclined (she's a killer queen) perfume came naturally from paris (naturally) for cars she couldn't care less fastidious and precise - she's a killer queen gunpowder gelatine - dynamite with a lazer beam guaranteed to blow your mind recommended at the price - insatiable in appetite - wanna try? drop of a hat, she's as willing as a playful as a pussy cat then momentarily out of action, temporarily out of gas to absolutely drive you wild, wild she's out to get you - she's a killer queen gunpowder gelatine - dynamite with a lazer beam guaranteed to blow your mind recommended at the price insatiable an appetite wanna try? wanna try...
Killer Queen
basic bass tab

  intro
|------------------------------------|
|------------------------------------|
|x-----x-----x-----x-----x-----x-----|
|------------------------------------|

  verse 1                                 - piano -
|------------------------|------------------------|------------------------|------------------------|
|------------------------|-----------------10-7---|------------------------|------------^10-8-------|
|------------------------|----------------------10|------------------------|-----------------10-9-8-|
|------------------------|------------------------|8-----------------------|------------------------|

|------------------------|------------------------|------------------------|------------------------|
|------------------------|------------------------|------------------------|------8-----8-----------|
|6-----6-----5---------5-|4-----4-----------------|------------------8-----|8---------8-------------|
|------------------------|------------4-----4-----|4-----4-----6---------6-|----6-------------------|

            |------------|------------------------|------------------------|------------------------|
            |------------|------------------------|8---------8-------------|------------5-----------|
            |------6-7-8-|10--------10------------|------------6---------6-|5---------5-------8-----|
            |------------|------------8--------8--|------------------------|------------------------|
  chorus 1
|------------------------|------------------------|------------------------|
|------------------------|------------------------|------------7-----------|
|------------5---------8-|10--------10----------8-|10--------8-------------|
|6---------6-------------|------------10----------|------------------10--8-|

|------------------------|------------------------|
|------------9-----10/---|17--15------------------|
|10----12----------------|------------------------|
|------------------------|------------------------|

|------------------------|------------------------|------------------------|
|---------10-12--------12|----------8-10----------|10--8-------------------|
|12----------------------|10----------------------|------------------------|
|------------------------|------------------------|------------------------|

|------------------------|------------------------|------------------------|------------------------|
|------------------------|----------------1-------|------------------------|------------8-----8---10|
|8-----------------------|------------------3-0---|------------1-----3/----|8---------------8-------|
|------------------------|----------------------3-|1---------1-----3-------|------------------------|

  verse 2
|------------------------|------------------------|------------------------|------------------------|
|------------------------|------------------------|10----------------------|------------^10-8-------|
|------------------------|------------------------|------------------------|-----------------10-9-8-|
|------------------------|------------------------|------------------------|------------------------|

|------------------------|------------------------|------------------------|------------------------|
|------------------------|------------------------|------------------------|------8-----8-----------|
|6-----6-----5-----5-----|4-----4---4-------------|------------------8-8---|8---6-----8-------------|
|------------------------|------------4-----4-----|4-----4-----6---------6-|------------------------|

            |------------|------------------------|------------------------|10-9-8-7----------------|
            |------------|------------------------|8-----8---8-------------|--------10-8------------|
            |------------|10--------10------------|----8---8---6-----------|------------10----8-----|
            |------------|------------8-----------|------------------------|----------------8-------|
  chorus 2
|------------------------|------------------------|------------------7-----|
|------------------------|------------------------|------------7---10----10|
|------------5---------8-|10--------10----------8-|10--------8-------------|
|6---------6-------------|------------10----------|------------------------|

|------------------------|------------------------|
|------7-----9-----10/---|17--15------------------|
|10----------------------|------------------------|
|------------------------|------------------------|
  solo
|------------------------|------------------------|------------------------|------------------|
|---------10-12----------|---------10-12----------|----------8-10----------|----------8-10\---|
|12----------------------|12----------------------|10----------------------|10--------------8-|
|------------------------|------------------------|------------------------|------------------|

|------------------------|------------------------|------------------------|------|
|------------------------|------------------------|------------------------|------|
|8---8-------------------|8---8-------------------|8---8-------------------|------|
|------------------------|------------------------|------------------------|------|

|------------------------|------------------------|------------------------|------------------------|
|------------------------|--------------------7---|------------------------|------------^10-8-------|
|------------------------|----------------------10|------------------------|-----------------10-9-8-|
|------------------------|------------------------|8-----------------------|------------------------|

|------------------------|------------------------|------------------------|------------------------|
|------------------------|------------------------|------------------------|------8-----8-----------|
|6-----6-----5-----5-----|4-----4---4-------------|------------------8-----|8---------6-------------|
|------------------------|------------4-----4-----|4-----------6---------6-|------------------------|

            |------------|------------------------|------------------------|
            |------------|8-----8-8-8-8-----8-----|8-----------------------|
            |------------|----------------------8-|------------------------|
            |------------|------------------------|------------------------|

  verse 3
|------------------------|------------------------|------------------------|------------------------|
|------12----10----12--12|------12----10----------|--------------13--------|--------------13--------|
|10--------10------------|10--------10------------|13--11-13-11------------|13--11-13-11----------13|
|------------------------|------------------------|------------11----------|------------11----------|

|------------------------|------------------------|------------------------------------|
|12----------------------|------------------------|------------------------------------|
|------------10----8-----|------------------------|------------------------------------|
|------------------------|------------1-1-1-1-1-1-|------------1-1-1-1-1-1-1-1-1-1-1---|

  chorus 3
|------------------------|------------------------|------------------------|
|------------------------|------------------------|------------7-----------|
|------------5---------8-|10--------10----------8-|10--------8-----8-------|
|6-----6---6-------10----|------------10----------|------------------10--8-|

|------------------------|------------------------|
|------------9-----10/---|17--15------------------|
|10----12----------------|------------------------|
|------------------------|------------------------|

|------------------------|------------------------|------------------------|
|---------10-12----------|----------8-10----------|10--8-------------------|
|12----------------------|10----------------------|------------------------|
|------------------------|------------------------|------------------------|

  outro
|------------------------|------------------------|------------------------|------------------|
|------------------------|------------------------|------------------------|------------------|
|------------------18\---|------------1-----3-----|------------1-----------|------------1---0-|
|1-----------------------|1---1-----1-----1-----1-|----------1-------3-----|1---------1-------|

|------------------------|
|13--13------------------|*
|------------------------|*
|------------11--11------|

















now i'm here here i stand... look around... but you won't see me... now i'm here... now i'm there... i'm just a... just a new man yes, you made me live again a baby i was when you took my hand and the light of the night burned bright and the people all stared, didn't understand but you knew my name on sight whatever came of you and me - america's new bride to be ? don't worry baby, i'm safe and sound down in the dungeon, just peaches and me don't i love her so? yes, she made me live again - yeah! a thin moon, me in the smoke screen sky where the beams of your love light chase don't move, don't speak, don't feel no pain with the rain running down my face your matches still light up the sky and many a tear lives on in my eye down in the city, just hoople and me don't i love him so - don't i love him so? whatever comes of you and me i love to leave my memories with you now i'm here... think i'll stay around... down in the city just you and me... don't i love you so? go go go - little queenie...
Now I'm Here 
bass tab

  optional intro
|------------------------|                        |---------------12----14-|------------------------|
|12-12-12-12-12-12-12-12-|x                       |12-12-12-12-12-12-12-12-|12-12-12-12-12-12-12-12-|
|------------------------|4                       |------------------------|------------------------|
|------------------------|                        |------------------------|------------------------|

|------------------------|------------------------|------------------------|------------------------|
|------------------------|------------------------|------------------------|---------------10----12-|
|15-15-15-15-15-15-15-15-|14-14-14-14-14-14-14-14-|13-13-13-13-13-13-13-13-|11-11-11-11-11----------|
|------------------------|------------------------|------------------------|------------------------|

|------------------------|------------------------|---------------12----14-|------------------------|
|12-12-12-12-12-12-12-12-|12-12-12-12-12-12-12-12-|12-12-12-12-12-12-12-12-|12-12-12-12-12-12-12-12-|
|------------------------|------------------------|------------------------|------------------------|
|------------------------|------------------------|------------------------|------------------------|

|------------------------|------------------------|---------------12----14-|------------------------|
|------------------------|---------------------12-|12-12-12-12-12-12-12-12-|12-12-12-12-12-12-12-12-|
|15-15-15-15-15-15-15-15-|14-14-14-14--.-15-------|------------------------|------------------------|
|------------------------|------------------------|------------------------|------------------------|

|------------------------|------------------------|
|10-10-10-10-10-10-10-10-|9--9--9--9--9--9--9-----|
|------------------------|---------------------0--|
|------------------------|------------------------|
                                               ^
|----------------|----------------|----------------|----------------|
|--007---7-5-----|--0-7-..7-5-----|--0-7-0-7-5-----|--0-7---7-0-----|
|------------7-0-|------------7-0-|------------7-0-|----------------|
|----------------|----------------|----------------|--------------7-|

|----------------|----------------|----------------|----------------|
|----9-9-9-9-9---|--9-9-9-9-9-9---|--9-9-9-9-9-9---|--9-9-9-9-9-9-9-|
|--9-------------|----------------|----------------|----------------|
|--------------7-|--------------7-|--------------7-|----------------|

  theme 1
|----------------|----------------|----------------|----------------|----------------|----------------|
|--------2-------|--------------0-|--0-------------|----------0-2---|--2-----2-----2-|------0---------|
|--------------2-|----0-----------|----0-----2---2-|----0-1-2-------|----------------|----------0---0-|
|0---3-4---0-0---|--------3-4-0---|----------------|2-------------0-|----0-0-----0---|0-0-------------|

  verse 1
|----------------|----------------|----------------|----------------|
|----------------|--------------2-|--------2-----2-|------0---------|
|2-------2---2---|2-2-2-2-2-------|----2-----------|----------0---0-|
|------0---0---0-|----------0-0---|--0-------0-0---|0-0-0-----------|

|----------------|----------------|----------------|----------------|
|----0-1-2-0-1---|----0---2-0---2-|--------2-----2-|----------------|
|2-------------2-|--2---2-----2---|----2-----------|------2---------|
|----------------|----------------|--0-------0-0---|0-0-0-----0---0-|

  chorus 1
|----------------|----------------|----------------|----------------|
|----------------|----------------|----------------|----------------|
|------5---5-----|------7-----7---|------9---9-----|------11--11-11-|
|5-5-----------7-|--7-------0---0-|9-9-----------11|--11----------.0|

|----------------|----------------|----------------|----------------|
|----------------|----------------|----------------|--------
|7---------------|----------------|----------------|
|----------------|------0-2-2---3-|--------

  bridge 1
|----------------|----------------|----------------|----------------|
|9---9---9-----9-|----9---9-----9-|----9---------9-|----------------|
|---9--9---9-----|----------9-----|--9-------9-----|--9-------------|
|------------7---|--7---77----7---|---7--------7---|----7-7-7-7-7-7-|

  theme 2
|----------------|----------------|----------------|----------------|----------------|----------------|
|--------2-------|--------------0-|--0-------------|----------0-2---|----------------|----------------|
|--------------2-|----0-----------|----0-----2---2-|----0-1-2-------|--7-----7-----7-|------5-------0-|
|0---3-4---0-0---|--------3-4-0---|----------------|2-------------0-|----0-0---0-0---|0-0-0-----5-----|

  verse 2
|----------------|----------------|----------------|----------------|
|----------------|----------------|2---2---2-----2-|------0---------|
|2---2---2-2-2-2-|--0-2---2---2---|--2-------2-----|2---------0---0-|
|------0---------|----------0---0-|------------0---|--0-0-----------|

|----------------|----------------|----------------|----------------|
|----0-1-2-0-1---|--0-1-2-0-1---2-|--------2-----2-|----------0-----|
|2-2-----------2-|------------2---|----2-----------|------0---------|
|----------------|----------------|--0-------0-----|0-0-0---------0-|



  chorus 2
|----------------|----------------|----------------|----------------|
|----------------|----------------|------2---2-----|------4---------|
|------3---3-----|------0-5-0-5-0-|2-2-2---------4-|------------4\--|
|3-3-----------5-|--5-------------|----------------|--2-------2-----|

|----------------|----------------|----------------|----------------|
|0---------------|----------------|----------------|--------
|----------------|--------7-7\--0-|----------------|
|----------------|----------------|--------

  bridge 2
|----------------|----------------|----------------|----------------|
|----------------|----------------|----------------|----------------|
|--------------7-|----------------|----------------|----------------|
|7-------7-7-7---|0-0-0-.-5-5-5-.-|7---7---7-7-7-0-|--0-0-.-5-5-5-5-|

  solo
|----------------|----------------|----------------|----------------|
|----------------|----------------|----------------|----------------|
|---------^-^----|----------------|---------^-^----|----------------|
|7---7---7-5-0-0-|--3-0-5---3-0-7-|7---7---7-5-0-0-|--3---5---3-0-.-|

|----------------|----------------|----------------|----------------|
|----------------|----------------|----------------|----------------|
|2-2-2-2-2---2---|------0---------|2-2-2---2---2---|------0---------|
|----------0---0-|--3-0-----3-0---|----------0---0-|0-3-------3-0---|

|----------------|----------------|----------------|----------------|
|----------------|----------------|----------------|----------------|
|2-2-2-2-2-2-2---|------0---------|2-2-2---2-2-2---|------0-------2-|
|--------------0-|--3-------3---0-|--------------0-|0-3-------3-0---|

|----------------|----------------|
|----------------|----------------|
|2-2-2-2-2-2-2-2-|2-2-2-2-2-2-2-2-|
|----------------|----------------|

  chorus 3
|----------------|----------------|----------------|----------------|
|----------------|----------------|------2---------|------4-4-4-4-4-|
|------3---3-----|------5---5-5-5-|2-2-2-----2---4-|--4-------------|
|3-3-----------5-|--5-------------|----------------|----------------|

  refrain (optional)
|----------------|----------------|----------12--14|----------------|
|0---------------|(12)------------|----------12--12|----------------|
|----------------|----------------|----------------|----------------|
|----------------|----------------|----------------|----------------|

|----------------|----------------|----------------|----------------|
|(10)------------|(9)-------------|(8)-------------|--------
|----------------|----------------|----------------|
|----------------|----------------|--------

|--------
|----------------|
|(12)------------|--------
|----------------|--------------0-|

  theme 3
|----------------|----------------|----------------|----------------|----------------|
|--------2-------|--------------0-|--0-------------|----------------|------0-2------^|
|--------------2-|----0-----------|----0-----2---2-|------0---0-----|0-1-2---------0-|
|--0-3-4---0-0---|--------3-4-0---|----------------|2---2-------0---|----------0-----|

  outro
|----------------|----------------|----------------|----------------|
|----------------|---------------^|----------------|----------------|
|2-2-2---2-2-2---|------0---0---0-|2-2-2---2-2-2---|----------------|
|--------------0-|--0-------------|--------------0-|--0---3/5-5-5---|

|----------------|----------------|----------------|----------------|
|----------------|----------------|----------------|----------------|
|---------^-^----|---^-------^----|---------^-^----|-------^--------|
|7-7-7-7-7-5-0-0-|--3-0-5---0-5---|7-7-7-7-7-5-0-0-|--0---3-5-5-5\--|

|----------------|----------------|----------------|----------------|
|----------------|----------------|----------------|----------------|
|---------^-^----|---------^------|----------------|---------^-^--2-|
|7-7-7-7-7-5-0-0-|--0---5---7-7-..|7-7-7-7-7-7-7-0-|--0---5---3-0---|

|----------------|----------------|
|----------------|----------------|
|----2---2-------|-----------^--2-|
|--0-------0-0-0-|--0---5---3-0---|

  coda
|----------------|----------------|----------------|----------------|----------------|
|----------------|----------------|----------------|----------------|----------------|
|----2---2-2-----|2-2-2---2-2-2-2-|2-2-2-2-2-2-2-2-|--2-2---2-----2-|----2---2-----2-|...
|--0-----------0-|----------------|----------------|------0---0-----|--0---0---0-0---|










stone cold crazy sleeping very soundly on a saturday morning - i was dreaming i was al capone there's a rumour going round, gotta clear out of town - i'm smelling like a dry fish bone here come the law gonna break down the door- gonna carry me away once more never, never, i never want it anymore - gotta get away from this stone cold floor crazy - stone cold crazy, you know rainy afternoon i gotta blow a typhoon - and i'm playing on my slide trombone anymore, anymore cannot take it anymore - gotta get away from this stone cold floor crazy - stone cold crazy, you know walking down the street, shooting people that i meet with my rubber tommy water gun here come the deputy, he's gonna come and get me - i gotta get me up and run they got the sirens loose - i ran right out of juice they're gonna put me in a cell - if i can't go to heaven, will they let me go to hell? crazy - stone cold crazy, you know











death on two legs you suck my blood like a leech - you break the law and you preach screw my brain till it hurts - you've taken all my money - and you want more misguided old mule with your pig headed rules with your narrow minded cronies who are fools of the first division death on two legs - you're tearing me apart death on two legs - you've never had a heart of your own kill joy - bad guy - big talking small fry you're just an old barrow boy have you found a new toy to replace me? can you face me? but now you can kiss my ass goodbye feel good - are you satisfied? do you feel like suicide? (i think you should) is your conscience all right - does it plague you at night? do you feel good - feel good? you talk like a big business tycoon - you're just a hot air balloon - so no one gives you a damn you're just an overgrown schoolboy - let me tan your hide a dog with disease - you're the king of the sleaze put your money where your mouth is, mister know-all was the fin on your back part of the deal, shark death on two legs - you're tearing me apart death on two legs - you've never had a heart (you never did) of your own (right from the start) insane - you should be put inside - you're a sewer rat decaying in a cesspool of pride should be made unemployed - then make yourself null and void make me feel good - i feel good











'39 in the year of thirty-nine, assembled here the volunteers - in the days when lands were few here the ship sailed out into the blue and sunny morn - the sweetest sight ever seen and the night followed day and the story tellers say that the score brave souls inside for many a lonely day, sailed across the milky seas - ne'er looked back, never feared, never cried don't you hear my call, though you're many years away - don't you hear me calling you ? write your letters in the sand, for the day i'll take your hand - in the land that our grand-children knew in the year of thirty-nine, came a ship from the blue - the volunteers came home that day and they bring good news of a world so newly born - though their hearts so heavily weigh for the earth is old and grey, little darling, we'll away - but my love this cannot be oh, so many years have gone, though i'm older than a year - your mothers eyes, from your eyes, cry to me don't you hear my call, though you're many years away - don't you hear me calling you ? write your letters in the sand, for the day i'll take your hand - in the land that our grand-children knew don't you hear my call, though you're many years away - don't you hear me calling you ? all your letters in the sand cannot heal me like your hand - for my life, still ahead, pity me











bohemian rhapsody is this the real life - is this just fantasy caught in a landslide - no escape from reality open your eyes - look up to the skies and see i'm just a poor boy - i need no sympathy because i'm easy come, easy go - a little high, little low anyway the wind blows, doesn't really matter to me - to me... mama, just killed a man put a gun against his head - pulled my trigger, now he's dead, mama, life had just begun - but now i've gone and thrown it all away mama, ooh - didn't mean to make you cry if i'm not back again, this time tomorrow, carry on, carry on - as if nothing really matters too late, my time has come sends shivers down my spine - body's aching all the time, goodbye everybody, i've got to go gotta leave you all behind and face the truth mama oooh (any way the wind blows) i don't want to die - i sometimes wish i'd never been born at all i see a little silhouetto of a man scaramouche, scaramouche will you do the fandango ? thunderbolt and lightning, very very frightening me galileo... galileo figaro, magnifico i'm just a poor boy - nobody loves me he's just a poor boy, from a poor family spare him his life from this monstrosity easy come easy go, will you let me go ? bismillah! no, we will not let you go - let him go no, no, no, no, no, no, no mama mia - mama mia - mama mia, let me go beelzebub has a devil put aside for me - for me, for me... so you think you can stone me and spit in my eye so you think you can love me and leave me to die oh baby, can't do this to me baby just gotta get out, just gotta get right out of here nothing really matters, anyone can see nothing really matters, nothing really matters to me any way the wind blows...











tie your mother down get your party gown and get your pigtail down - and get your heart beating baby got my timing right i got my act all tight - it's gotta be tonight, my little school babe your mama says you don't - and your daddy says you won't and i'm boiling up inside - ain't no way i'm gonna lose out this time tie your mother down - tie your mother down lock your daddy out of doors - i don't need him nosing around tie your mother down - tie your mother down give me all your love tonight you're such a dirty louse - go, get out of my house - that's all i ever get from your family ties in fact i don't think i ever heard a single little civil word from those guys i don't give a light - i'm gonna make out all right i've got a sweetheart hand to put a stop to all that sniping and grousing tie your mother down - tie your mother down take your little brother swimming with a brick, that's alright tie your mother down - tie your mother down give me all your love tonight your mama and your daddy gonna plague me till i die i can't understand it because i'm a peace loving guy tie your mother down - tie your mother down get that big big big big big big daddy out the door tie your mother down - tie your mother down give me all your love tonight all your love tonight...











we will rock you buddy you're a boy, make a big noise playing in the street - gonna be a big man some day ya got mud on yer face - big disgrace - kickin yer can all over the place we will we will rock you... buddy you're a young man, hard man shoutin in the street - gonna take on the world some day ya got blood on yer face - big disgrace - wavin your banner all over the place we will we will rock you... buddy you're an old man, poor man, pleadin with your eyes - gonna make ya some peace some day ya got mud on yer face - big disgrace - somebody better put you back into your place we will we will rock you...




we are the champions i've paid my dues, time after time i've done my sentence, but committed no crime and bad mistakes, i've made a few i've had my share of sand kicked in my face, but i've come through and i need to go on and on and on and on we are the champions, my friend and we'll keep on fighting till the end we are the champions - we are the champions no time for losers - cuz we are the champions of the world i've taken my bows and my curtain calls you've bought me fame and fortune and everything that goes with it - i thank you all but it's been no bed of roses, no pleasure cruise i consider it a challenge before the whole human race - and i ain't gonna lose and i need to go on and on and on and on











sheer heart attack well you're just seventeen - and all you want to do is disappear you know what i mean - there's a lot of space between your ears the way that you touch - don't feel no nothing hey hey hey hey - it was the dna hey hey hey hey - that made me this way do ya know, do ya know, do ya know just how i feel? sheer heart attack - sheer heart attack - real cardiac i feel so in-ar in-ar in-ar in-ar in-ar in-ar in-ar in-ar-tic-u-late gotta feelin, gotta feelin, gotta feelin like a paralyse it ain't no, it ain't no, it ain't no, it ain't no surprise turn on the tv, let it drip right down in your eyes











spread your wings sammy was low, just watching the show - over and over again knew it was time he'd made up his mind - to leave his dead life behind his boss said to him, "boy you'd better begin to get those crazy notions right out of your head sammy who do you think that you are - you should've been sweeping up the emerald bar" spread your wings and fly away - fly away, far away spread your little wings and fly away - fly away, far away pull yourself together, cuz you know you should do better that's because you're a free man he spends his evenings alone in his hotel room keeping his thoughts to himself - he'd be leaving soon wishing he was miles and miles away nothing in this world, nothing would make him stay since he was small, had no luck at all - nothin came easy to him now it was time he'd made up his mind - "this could be my last chance" his boss said to him, "now listen, boy - you're always dreamin - you've got no real ambition, ya won't get very far sammy boy don't you know who you are - why can't you be happy at the emerald bar?"











it's late you say you love me - and i hardly know your name and if i say i love you in the candlelight - there's no-one but myself to blame but there's something inside that's turning my mind away oh, how i could love you - if i could let you stay it's late - but i'm bleeding deep inside it's late - is it just my sickly pride? too late - even now the feeling seems to steal away so late - though i'm cryin, i can't help but hear you say it's late, it's late, it's late - but not too late the way you love me is the sweetest love around but after all this time, the more i'm tryin, the more i seem to let you down now you tell me you're leaving - and i just can't believe it's true oh you know that i can love you - though i know i can't be true oh you made me love you - don't tell me that we're through it's late - but it's driving me so mad it's late - yes, i know - but don't try to tell me that it's too late - save our love, you can't turn out the lights so late - i've been wrong, but i'll learn to be right it's late, it's late, it's late - but not too late i've been so long - you've been so long - we've been so long - tryin to work it out i ain't got long - you ain't got long - we gotta know what this life is all about too late - much too late you're staring at me with suspicion in your eye you say, "what game are you playin, what's this that you're sayin" - i know that i can't reply if i take you tonight, is it making my life a lie? oh, you make me wonder - did i live my life alright? it's late - but it's time to set me free it's late - yes, i - know but there's no way it has to be too late - so let the fire take our bodies this night so late - so let the waters take our guilt in the tide it's late, it's late, it's late, it's late, it's late, it's late it's all too late











fat bottomed girls oh, you gonna take me home tonight oh, down beside that red firelight oh, you gonna let it all hang out fat bottomed girls, you make the rockin world go round i was just a skinny lad - never knew no good from bad but i knew life before i left my nursery left alone with big fat fanny, she was such a naughty nanny heap big woman, you made a bad boy out of me i've been singing with my band - cross the wire, across the land i seen every blue eyed floozy on the way but their beauty and their style went kind of smooth after a while take me to them dirty ladies every time hey listen here now, your mortgages and homes - i got stiffness in the bones ain't no beauty queens in this locality (i tell ya) oh, but i still get my pleasure - still got my greatest treasure heap big woman you gonna make a big man out of me now, get this get on yer bikes and ride











bicycle race bicycle bicycle bicycle - i want to ride my bicycle bicycle bicycle i want to ride my bicycle - i want to ride my bike i want to ride my bicycle - i want to ride it where i like you say black, i say white - you say bark, i say bite you say shark - i say, "hey, man - jaws was never my scene and i don't like star wars you say rolls, i say royce - you say god, gimme a choice you say lord - i say christ i don't believe in peter pan, frankenstein or superman all i wanna do is bicycle bicycle bicycle - i want to ride my bicycle bicycle bicycle i want to ride my bicycle - i want to ride my bike i want to ride my bicycle - i want to ride my bicycle races are coming your way - so forget all your duties - oh, yeah fat bottomed girls, they'll be riding today - so look out for those beauties - oh, yeah on your marks - get set - go bicycle race, bicycle race, bicycle race bicycle bicycle bicycle - i want to ride my bicycle bicycle bicycle bicycle bicycle - bicycle race you say coke - i say caine - you say john - i say wayne hot dog - i say, "cool it, man - i don't wanna be the president of america you say smile - i say cheese - cartier - i say please income tax - i say, "jesus - i don't wanna be a candidate for vietnam or watergate cuz all i wanna do is bicycle bicycle bicycle - i want to ride my bicycle bicycle bicycle i want to ride my bicycle - i want to ride my bike i want to ride my bicycle - i want to ride it where i like











dead on time fool - always jumpin, never happy where you land fool - got my business, make your living where you can hurry down the highway - hurry down the road hurry past the people staring - hurry, hurry, hurry, hurry leave on time - leave on time - never got your ticket, but you leave on time leave on time - leave on time - gonna get your ticket, but you leave on time leave on time - leave on time - put it in your pocket, but you never can tell leave on time - leave on time - shake that rattle gotta leave on time leave on time - leave on time - fight your battle but you leave on time leave on time - leave on time - never got a minute, no you never got a minute no you never, never got - oh, no matter fool - got no business hangin round and tellin lies fool - you got no reasons, but you got no compromise stamping on the ceiling - hammering on the walls gotta get out - gotta get out - gotta get oh, you know i'm going crazy leave on time - leave on time - gotta get ahead, but you leave on time leave on time - leave on time - gotta head on ahead, but you leave on time leave on time - leave on time - you're running in the red, but you never can tell honey, honey, where's my money - where's my money wanna get away, wanna get away - leave you, leave you, leave you leave on time - leave on time - gotta get rich, gonna leave on time leave on time - leave on time - but you can't take it with you when you leave on time leave on time - leave on time - got to keep yourself alive, gotta leave on time, gotta leave on time - leave on time - dead on time - you're dead











more of that jazz if you're feelin tired and lonely - uninspired and lonely if you're thinkin how the days seem long all you're given is what you've been given a thousand times before just more, more, more of that jazz more - no more of that jazz give me no more - no more of that jazz only football gives us thrills - rock n roll just pays the bills only our team is the real team bring out the dogs, get on your feet, lay on the floor can't help thinking i've heard that line before











dragon attack take me to the room where the red's all red take me out of my head, that's what i said, yeah hey take me to the room where the green's all green and from what i've seen it's hot it's mean gonna use my stack it's gotta be mack gonna get me on the track got a dragon on my back take me to the room where the beat's all round gonna eat that sound - yeah, yeah, yeah take me to the room where the black's all white and the white's all black - take me back to the shack she don't take no prisoners gonna give me the business got a dragon on my back it's a dragon attack get down, i said so - hey hey, all right she's low down - she don't take no prisoners go down - gonna give me the business no time - yeah chained to the rack show time - got a dragon on my back show down - go find another customer slow down - i gotta make my way











save me it started off so well - they said we made a perfect pair i clothed myself in your glory and your love - how i loved you - how i cried the years of care and loyalty were nothing but a sham, it seems the years belie, we lived a lie - i love you till i die save me, save me, save me - i can't face this life alone save me, save me, save me - i'm naked and i'm far from home the slate will soon be clean - i'll erase the memories to start again with somebody new - was it all wasted - all that love? i hang my head and i advertise a soul for sale or rent i have no heart, i'm cold inside - i have no real intent save me, save me, save me - i can't face this life alone save me, save me, save me - i'm naked and i'm far from home each night i cry i still believe the lie - i love you till i die save me, save me, save me - don't let me face my life alone save me, save me, save me - i'm naked and i'm far from home











under pressure pressure, pushing down on me pressing down on you, no man ask for under pressure, that burns a building down splits a family in two, puts people on streets that's ok it's the terror of knowing what this world is about watching some good friends screaming, "Let me out!" pray tomorrow gets me higher pressure on people - people on streets chippin' around, kick my brains 'round the floor these are the days - it never rains but it pours people on the streets - people on the streets it's the terror of knowing what this world is about watching some good friends screaming, "let me out!" tomorrow gets me higher, higher, higher... pressure on people - people on streets turned away from it all like a blind man sat on a fence but it don't work keep coming up with love but it's so slashed and torn why, why, why? love... insanity laughs under pressure we're cracking can't we give ourselves one more chance ? why can't we give love that one more chance ? why can't we give love, give love... cuz love's such an old-fashioned word and love dares you to care for the people on the edge of the night and love dares you to change our way of caring about ourselves this is our last dance this is our last dance this is ourselves under pressure under pressure pressure

  intro 
|----------------|                                               ---|
|T-T-T-TTT-------| x18                                          ----|
|----------T-----|                                             -----|
|----------------|                                            --X\\-|

  verse 1
|----------------|----------------|----------------|----------------|
|----------------|----------------|----------------|----------------|
|5-5-5-555-0-=---|4-4-4-444-0-=---|2-2-2-222-0-2-=-|0-0-0-0o2-0-4-0-|
|----------------|----------------|----------------|----------------|

|----------------|----------------|----------------|----------------|
|----------------|----------------|----------------|----------------|
|5-5-5-555-0-=---|4-4-4-444-0-=---|2-2-2-2-2-o-5\\-|0-0-0-0-2-0-4-0-|
|----------------|----------------|----------------|----------------|

  chorus 1
|----------------|----------------|    |----------------|----------------|
|----------------|----------------|    |----------------|----------------|
|----------------|X-X-X-X-X-X-X\\-| x3 |----------------|----------------|
|3-3-3-3-3-3-3-3-|----------------|    |2---------------|3-----5---------|

  verse 2
|----------------|                                               ---|
|T-T-T-TTT-------| x8                                           ----|
|----------T-----|                                             -----|
|----------------|                                            --X\\-|

|----------------|----------------|----------------|----------------|
|----------------|----------------|----------------|----------------|
|5-5-5-555-0-=---|4-4-4-444-0-=---|2-2-2-2-2-0-=---|2-0-0-0-2-0-4-0-|
|----------------|----------------|----------------|----------------|

|----------------|----------------|----------------|----------------|
|----------------|----------------|----------------|----------------|
|5-5-5-555-0-=-5-|4-4-4-444-0-=---|2-2-2-2-2-0-2-2-|0-0-0-0-2-0-4-0-|
|----------------|----------------|----------------|----------------|

  chorus 2
|----------------|----------------|    |----------------|----------------|
|----------------|----------------|    |----------------|----------------|
|----------------|X-X-X-X-X-X-X\\-| x3 |----------------|----------------|
|3-3-3-3-3-3-3-3-|----------------|    |2---------------|3-----5---------|

  bridge
|----`-------`---|----`-------`---|----`-------`---|----`-------`---|
|----------------|----------------|----------------|----------------|
|----------------|----------------|----------------|----------------|
|----------------|3---------------|----------------|----------------|

|----`-------`---|----`-------`---|----`-------`---|`---------------|
|----------------|----------------|----------------|----------------|
|----------------|----------------|----------------|----------------|
|----------------|----------------|------------8\\-|5-5-5-5-5-5-5\\-|


|----------------|----------------|----------------|----------------|
|----------------|----------------|----------------|----------------|
|----------------|----------------|----------------|----------------|
|1-1111111|1-1-11-1111|1111-1111|1111-1111|

|----------------|----------------|----------------|----------------|
|----------------|----------------|----------------|----------------|
|0---------------|0---------------|T-T-T-T-T-T-T-T-|T-T-T-T-T-T-----|
|----------------|----------------|----------------|------------X\\-|

|----------------|----------------|----------------|----------------|
|----------------|------------5---|----------------|----------------|
|5---5--55-5-5-5-|----------------|5---5--55-5-5\\-|----------------|
|----------------|3-----5-=-------|----------------|3-----5-=---3---|

|----------------|----------------|
|----------------|----------------|
|5---5---5-5-5\\-|----------------|
||3-----5-=-.-3---|

|----------------|----------------|----------------|----------------|
|----------------|----------------|----------------|----------------|
|5---5-5-5-5-5-5-|4---4-4-4-4-4-4-|2-----2-2-2-2-2-|0-----o-2-0-4-0-|
|----------------|----------------|----------------|----------------|

|----------------|----------6-----|----------------|----------------|
|----------------|------6-----6---|----------------|----------------|
|5---5-5-5-5-5-5-|4-------4-----4-|2-----2-4-2-6\\-|0---0---2-0-4-0-|
|----------------|----------------|----------------|----------------|

|----------------|----------------|----------------|----------------|
|----------------|----------------|----------------|----------------|
|5-----5-5-5-5-5-|4-4---4-4-4-4-4-|2-2---2-2-2-2//-|0-0-0-0-2-0-4\\-|
|----------------|----------------|----------------|----------------|

|----------------|----------------|    |----------------|----------------|
|----------------|----------------|    |----------------|----------------|
|----------------|X-X-X-X-X-X-X\\-| x3 |----------------|----------------|
|3-3-3-3-3-3-3//-|----------------|    |2---------------|3-----5---------|

  outro 
|----------------|
|T-T-T-TTT-------| x6
|----------T-----|
|----------------|