The Beatles
1Help
2Drive My Car
3Day Tripper
4Paperback Writer
5Rain
6Eleanor Rigby
7Lucy in the Sky With Diamonds
8Being for the Benefit of Mr. Kite
9Strawberry Fields Forever
10All You Need is Love
11Back in the USSR
12While My Guitar Gently Weeps
13Birthday
14Revolution
15Come Together
16Because









Help Help - I need somebody Help - Not just anybody Help - You know I need someone Help ! When I was younger, so much younger than today I never needed anybodyís help in any way But now these days are gone and Iím not so self assured Now I find Iíve changed my mind Iíve opened up the doors Help me if you can, Iím feelin down And I do appreciate you bein round Help me get my feet back on the ground Wonít you please please help me ? And now my life has changed in oh so many ways My independence seems to vanish in the haze But evíry now and then I feel so insecure I know that I just need you like Iíve never done before
Help
basic bass tab

  intro
|----------------|----------------|----------------|----------------|
|9-9-9-9-9-9-7---|5-5-5-5-5---4---|2-2-2-2-2-------|7---------------|
|----------------|----------------|----------------|----------------|
|----------------|----------------|----------------|----------------|

  verse
|----------------|----------------|----------------|----------------|
|7--7----7--7----|----6-------6---|4--4----4--4----|----5---7-7---5-|
|----7-------7---|4--4----4--4----|----4-------4---|5--5--------7---|
|----------------|----------------|----------------|----------------|

  chorus
|----------------|----------------|----------------|----------------|
|----------------|----------------|--------5-------|5-5-------------|
|2-2-----2-2-----|2-2-----2-2-----|----5-5-----5-5-|----5-5---------|
|----2-2-----2-2-|----2-2-----5---|3-3-------------|--------3-3-2-2-|

|----------------|----------------|----------------|----------------|
|----------------|----------------|2---------------|7-------7---7---|
|--------2-2---2-|--------2-2---2-|----------------|----7--------7--|
|0-0-4-4-----4---|0-0-4-4-----4---|----------------|----------------|

  quiet verse
|----------------|----------------|----------------|----------------|
|7---------------|----------------|4---------------|----5---7-------|
|----------------|4---------------|----------------|5---------------|
|----------------|----------------|----------------|----------------|

  outro
|----------------|----------------|
|4-4-----4-4---4-|7---------------|
|----4-4-----4---|0---------------|
|----------------|----------------|




Drive My Car Asked a girl what she wanted to be She said, baby canít you see ? I wanna be famous, a star of the screen But you can do something in between Baby, you can drive my car - yes Iím gonna be a star Baby, you can drive my car - and maybe Iíll love you I told that girl that my prospects were good She said, baby itís understood Working for peanuts is all very fine But I can show you a better time I told that girl I could start right away And she said, listen, babe, Iíve got something to say Got no car, and itís breaking my heart But Iíve found a driver, thatís a start
Drive My Car
basic bass tab

  intro
|-------5-7------|
|----/7----------|
|-----------5----|
|----------------|

  verse
|----------------|----------------| |----------------|----------------|
|----------7-----|----------------|*|----------------|----------------|
|5------/9---97\-|----------5-----|*|----------------|----------7-97--|
|----------------|3------/7---75\-| |5-5-5-5-5-5-5-5-|5-5-5--/9-----9-|

  chorus
|----------------|----------------| |----------------|
|----------------|----------------|*|----------------|
|----------------|----------------|*|----------------|
|7---7---7---75\-|3---3---3---3/5-| |0-2-4-0-5-3-2-0-|




Day Tripper got a good reason for taking the easy way out... she was a day tripper - one way ticket, yeah it took me so long to find out - and i found out sheís a big teaser - she took me half the way there... she was a day tripper - one way ticket, yeah it took me so long to find out - and i found out tried to please her - she only played one night stands... she was a day tripper - sunday driver, yeah it took me so long to find out - and i found out
Day Tripper
bass tab

  riff E
|-----------------------------^--|
|------------2-0-------4-----0-2-|*
|-------^--2---------2-----2-----|*
|0-----3-4-----------------------|

  riff A                     ^
|------------2-0-------4-----0-2-|
|-------^--2---------2-----2-----|
|0-----3-4-----------------------|
|--------------------------------|
         .
 intro = E  E  
         E  E  E
 verse = E  E  A  E
chorus = F# F# F# F#
         A  G# C# B

  chorus 1, 3
|-------------^--|
|--------2---2-4-|*
|----1-4---------|4
|2---------------|
  F#

|----------------|----------------|
|----------------|6-------4-------|
|----4-7-----3-6-|----3-6-----0-0-|
|5-------3-------|----------------|
  A                  G#
  so...             long...

|----------------|----------------|
|----3---6-3-----|----1---1---4---|
|4-----------4---|2---------2-----|
|----------------|----------------|
  C#                 B



  chorus 2
|----------------|
|----------2---4-|*
|----1---4---4---|* x4
|2---------------|
  F#

|----------------|----------------|
|--------------4-|6---------------|
|----4---7-4-7---|----3---6---3-6-|
|5---------------|----------------|
  A                  G#
  so...             long...

|----------------|----------------|
|------3-6-------|------1-4-1-----|
|4---4-------4-0-|2---2-------4\--|
|----------------|----------------|
  C#                 B

  solo B
|----------------|
|----------------|*
|2---2---2-2-2---|*
|----------------|




Paperback Writer Dear Sir or Madam, will you read my book ? It took me years to write, will you take a look ? Based on a novel by a man named Lear And I need a job, so I want to be a paperback writer Itís a dirty story of a dirty man And his clinging wife doesnít understand His son is working for the Daily Mail Itís a steady job, but he wants to be a paperback writer Itís a thousand pages give or take a few Iíll be writing more in a week or two I can make it longer if you like the style I can change it round and I want to be a paperback writer If you really like it you can have the rights It could make a million for you overnight If you must return it you can send it here But I need a break and I want to be a paperback writer
Paperback Writer 
basic bass tab

  intro
|-------------------------------------------------------------------|
|---------------------------------------------------16-16-16---16\--|
|-------------------------------------------------------------------|
|-------------------------------------------------------------------|

  verse
|--------------------------------|--------------------------------|
|4---4-------2-4---------------2-|--------------4---------------2-|
|----------4---------------1-4---|------------4-------------1-4---|
|------------------------2-------|2---2-----2-------------2-------|

|--------------------------------|--------------------------------|
|4---4-------2-4-----4-------4---|4-------------4-----4---2-4-----|
|----------4---------------4-----|------------4---------------4---|
|------------------------2-------|----------2---------------------|

  chorus 
|--------------------------------|--------------------------------|
|--------------------------------|--------------------------------|
|2---2-----0-1-2-----------0-1---|--------------------------------|
|--------2---------------2-------|2---2---------------------------|




Rain if the rain comes they run and hide their heads they might as well be dead if the rain comes if the rain comes when the sun shines they slip into the shade and sip their lemonade, when the sun shines when the sun shines rain, I donít mind shine, the weatherís fine i can show you that when it starts to rain everythingís the same i can show you i can show you rain, I donít mind shine, the weatherís fine can you hear me that when it rains and shines itís just a state of mind can you hear me can you hear me
Rain 
basic bass tab

  intro
|--------12-----------10-12-10---|
|---------------10-12------------|
|10------------------------------|
|--------------------------------|

  verse
|--------12-----------10---------||--------------------------------|
|---------------10-12--------12--||10------10------12------12------|*
|10------------------------------||--------------------------------|*
|--------------------------------||--------------------------------|

||--------------------------------|--------------------------------|
||10------10----------------------|10------10------10------10------|
||----------------10------10------|--------------------------------|
||--------------------------------|--------------------------------|

 |--------------------------------|--------------------------------||
 |12------12------12------12------|--------------------------------||
 |--------------------------------|12------12------12------12------||
 |--------------------------------|--------------------------------||




Eleanor Rigby ah, look at all the lonely people... Eleanor Rigby - picks up the rice in the church where a wedding has been - lives in a dream waits at the window - wearing a face she keeps in a jar by the door - who is it for ? all the lonely people, where do they all come from ? all the lonely people, where do they all belong ? Father McKenzie - writing the words of a sermon that no-one will hear - no one comes near look at him working - darning his socks in the night when thereís nobody there - what does he care ? Eleanor Rigby - died in the church and was buried along with her name - nobody came Father McKenzie - wiping the dirt from his hands as he walks from the grave - no one was saved





Lucy in the Sky With Diamonds Picture yourself in boat on a river With tangerine trees and marmalde skies Somebody calls you, you answer quite slowly A girl with kaleidoscope eyes Cellophane flowers of yellow and green, towering over your head Look for the girl with the sun in her eyes and sheís gone Lucy in the sky with diamonds... Follow her down to a bridge by a fountain Where rocking horse people eat marshmallow pies Everyone smiles as you drift past the flowers That grow so incredibly high Newspaper taxis appear on the shore, waiting to take you away Climb in the back with your head in the clouds and youíre gone Lucy in the sky with diamonds... Picture yourself on a train in a station With plasticine porters with looking glass ties Suddenly someone is there at the turnstile The girl with kaleidoscope eyes Lucy in the sky with diamonds...





Being for the Benefit of Mr. Kite for the benefit of Mr. Kite, there will be a show tonight on trampoline the Hendersons will all be there, late of Pablo Fanques'fair - what a scene over men and horses hoops and garters and lastly through a hogshead of real fire in this way Mr. K will challenge the world the celebrated Mr. K performs his feats on Saturday at Bishopsgate The Hendersons will dance and sing as Mr. Kite flies through the ring - don't be late Messers K. and H. assure the public their production will be second to none and of course Henry the Horse dances the waltz the band begins at ten to six, when Mr. K performs his tricks without a sound and Mr. H will demonstrate ten somersets he'll undertake on solid ground having been some days in preparation a splendid time is guaranteed for all and tonight Mr. Kite is topping the bill
Being for the Benefit of Mr. Kite
bass tab

  intro
|------------|------------|------------|
|8-88--8-88--|7-77-77--7--|------------|
|------------|------------|5-----------|
|------------|------------|------3-----|

  verse 1
|------------|------------|------------|------------|
|------------|---------3--|5--5--5-----|---------5--|
|3-----------|1----35-----|--------5--5|--02-35-----|
|------3-----|------------|---------7--|3-----------|

|------------|------------|------------|
|---------5-5|------------|7--7--7-----|
|3--5--6-----|------5--8-8|--------7--7|
|------------|6--8--------|---------9--|

|------------| |---5-79--7-6|7--5--------|  |---7--------|
|---------5-7| |8-----------|------8--7--|* |8----87--7\-|
|5--7--8-----| |------------|------------|* |------------|
|------------| |------------|------------|  |------------|
  verse 2
|------------|
|------------|
|5-----------|
|------3-----|

|------------|------------|------------|------------|
|------------|---------3--|5-----5-----|---------5--|
|3-----------|1----35-----|-----5--5--5|--02-35-----|
|------3-----|------------|---------7--|3-----------|

|------------|------------|------------|
|---------5-5|------------|7--7--7-----|
|3--5--6-----|------5--8-8|--------7--7|
|------------|6--8--------|---------9--|

|------------|-----79--7-6|7-----------|-----79--7-6|
|-----------7|8--10-------|---10-8--7--|8--10-------|
|---7--8--10-|------------|------------|------------|
|10----------|------------|------------|------------|

  bridge
|------------|------------|------------|------------|
|----------5-|----------5-|7---0-7---7-|--------0-2-|
|5-5-7-8-----|3---5-7-----|---------5-5|0---024-----|
|------------|------------|------------|------------|

|--------0-2-|--------0-2-|------------|------------|
|0---2-3-----|----0-2-----|9-----9---9-|--------7-9-|
|------------|3-----------|----9----9-9|7---9-10----|
|------------|------------|------------|------------|

 |------------------------|------------------------|
 |10--10--10--9---9\------|----------------7---9---|
 |--------------------5---|7-------9---10----------|
 |------------------------|------------------------|

 |------------------------|------------------------|
 |10---12-10--9-----------|------------------------|
 |--------------------5---|7-----------------------|
 |------------------------|------------------------|
  verse 3
|------------|
|------------|
|------------|
|------------|

|------------|------------|------------|------------|
|------------|---------3--|5--5--5-----|-------.5---|
|3-----------|1----35-----|--------5--5|--02-35-----|
|------3-----|------------|---------7--|3-----------|

|------------|------------|------------|
|---------5-5|------------|7--7--7-----|
|3--5--6-----|------5--8-8|--------7--7|
|------------|6--8--------|---------9--|

|------------| |---5-79--7-6|7--5--------|  |---7--------|
|---------5-7| |8-----------|------8--7--|* |8----87--7\-|
|5--7--8-----| |------------|------------|* |------------|
|------------| |------------|------------|  |------------|

  outro
|---------0--|------------|2--2--2-----|---------2--|
|-----23-----|-----0------|--------2--2|-----02-----|
|5-----------|3-----2-----|---------4--|0-24--------|
|------------|---------3--|------------|------------|

|---------0-2|---------0-0|4--4--4-----|-----------4|
|0--2--3-----|---0--2-----|--------4--4|---4--5--7--|
|------------|3-----------|---------6--|7-----------|
|------------|------------|------------|------------|

|5--7\-4--4\-|------0--2-4|5--5-54-----|------------|
|-----------0|2--4--------|------------|-----45--7--|
|------------|------------|---------5--|7-----------|
|------------|------------|------------|------------|

|------------|------------|------------|------------|
|10-10-9\----|------------|------------|------------|
|---------5--|7--7--5--5--|3--3--2--2--|------------|
|------------|------------|------------|0-----------|




Strawberry Fields Forever Let me take you down, cuz I'm going to Strawberry Fields Nothing is real and nothing to get hung about Strawberry Fields forever Living is easy with eyes closed Misunderstanding all you see It's getting hard to be someone but it all works out It doesn't matter much to me No one I think is in my tree I mean it must be high or low That is, you can't, you know, tune in, but it's all right That is I think it's not too bad Always, no sometimes, think it's me But you know I know when it's a dream I think I know I mean a "Yes" but it's all wrong That is I think I disagree





All You Need is Love Love, love, love... There's nothing you can do that can't be done Nothing you can sing that can't be sung Nothing you can say but you can learn how to play the game It's easy Nothing you can make that can't be made No one you can save that can't be saved Nothing you can do but you can learn how to be you in time It's easy All you need is love All you need is love All you need is love, love Love is all you need Nothing you can know that isn't known Nothing you can see that isn't shown Nowhere you can be that isn't where you're meant to be It's easy All you need is love...
All You Need Is Love
detailed bass tab

  verse 1
---|---------------------|---------------------|------------------------|---------------------|
---|5-----4--------------|5-----4--------------|7-----5-----4----2------|---------------------|
5--|------------7-----5-7|------------7-----5-7|------------------3-2-23|5--5--3--3--2-35--5-7|
---|---------------------|---------------------|---------------------3--|---------------------|

   |---------------------|---------------------|------------------------|---------------------|
   |5-----4--------------|5-----4--------------|7-----5-----4-----------|---------------------|
   |------------7-----5-7|------------7-----5-7|-----------------75-----|5--5--3--3--2-35--5-7|
   |---------------------|---------------------|--------------------87-8|---------------------|

  chorus 1
|------------------------|---------------7--------|---------------9\----7\-|------------------|
|5-----7--------------575|------7--------------7-5|---5--9-99-9------------|------------5-----|
|------------5-----5-7---|------------5-----5-7---|------------7-----5-----|3--3--5--5-----5-5|
|------------------------|------------------------|------------------------|------------------|

  solo
   |---------------------|0--0-----------------|2--2--0--0--------------|---------------------|
   |5--5-.4--4-02--2--0-2|------4--4--2--2--0-2|-----------.4-----2-----|---------------------|
   |---------------------|---------------------|--------------------32-3|5--5--3--3--2-35--5-7|
   |---------------------|---------------------|------------------------|---------------------|

  chorus 2
|---------------7--------|---------------7-7------|------4-44-4------------|------------------|
|5-----7----7--------57-5|------7----7---------7-5|---5--------2-.2--------|------------5-----|
|------------5----.5-----|------------5-----5-5---|-----------------.5-.5--|3--3--5--5-5---5-5|
|------------------------|------------------------|------------------------|------------------|

  verse 2
   |---------------------|---------------------|------------------------|---------------------|
   |5-----4--------------|5-----4--------------|7-----5-----4-----------|---------------------|
   |------------7-----5-7|------------7-----5-7|-----------------75-----|5--5--3--3--2-35-.5-7|
   |---------------------|---------------------|--------------------87-8|---------------------|

  chorus 3
|---------------7--------|---------------7--------|---------------9--------|------------------|
|5-----7--------------7-5|---5--7--7-----------7-5|---5--9-99-9--9--.7-----|------------5-----|
|------------5-----5-7---|-----------55----55-5---|------------7-------5---|3--3--5--5-5---5-5|
|------------------------|------------------------|------------------------|------------------|

|------------------7-7---|------------------7-----|------------------------|------------------|
|5--5--7--7--------------|5--5--7-.7--------------|5--5-.9-.9--------------|------------5-----|
|-----------55--5-----5--|-----------.5--5-----5--|-----------.7--7-.5-.5-.|3--3-.5--5-----5-5|
|------------------------|------------------------|------------------------|------------------|

  coda
|------------------------|
|5--5--------5--5--------|*
|-----.5--5--------5--5--|*
|------------------------|





Back in the USSR Oh, flew in from Miami Beach B.O.A.C. Didn't get to bed last night On the way the paper bag was on my knee Man I had a dreadful flight I'm back in the U.S.S.R. You don't know how lucky you are boy Back in the U.S.S.R. Been away so long I hardly knew the place Gee it's good to be back home Leave it till tomorrow to unpack my case Honey disconnect the phone Well the Ukraine girls really knock me out They leave the West behind And Moscow girls make me sing and shout That Georgia's always on my mind Oh, show me around your snow-peaked mountains way down south Take me to your daddy's farm Let me hear your balalaika's ringing out Come and keep your comrade warm





While My Guitar Gently Weeps I look at you all see the love there that's sleeping While my guitar gently weeps I look at the floor and I see it needs sweeping Still my guitar gently weeps I don't know why nobody told you How to unfold your love I don't know how someone controlled you They bought and sold you I look at the world and I notice it's turning While my guitar gently weeps With every mistake we must surely be learning Still my guitar gently weeps I don't know how you were diverted You were perverted too I don't know how you were inverted No one alerted you





Birthday They say it's your birthday It's my birthday too, yeah They say it's your birthday We're gonna have a good time I'm glad it's your birthday Happy birthday to you Yes we're going to a party party... I would like you to dance Take a cha-cha-cha-chance





Revolution You say you want a revolution - well, you know - we all want to change the world You tell me that it's evolution - well, you know - we all want to change the world But when you talk about destruction Don't you know you can count me out - don't you know know it's gonna be alright... You say you got a real solution - well, you know - we don't love to see the plan You ask me for a contribution - well, you know - we're all doing what we can But if you want money for people with minds that hate All I can tell you is brother you have to wait - don't you know know it's gonna be alright... You say you'll change the constitution - well, you know - we all want to change your head You tell me it's the institution - well, you know - you better free your mind instead But if you go carrying pictures of Chairman Mao You ain't going to make it with anyone anyhow - don't you know know it's gonna be alright...





Come Together Here come old flattop, he come groovin up slowly He got juju eyeball, he one holy roller He got hair down to his knee Got to be a joker he just do what he please He wear no shoeshine, he got toe-jam football He got monkey finger, he shoot coca-cola He say "I know you, you know me" One thing I can tell you is you got to be free Come together right now over me He bag production, he got walrus gumboot He got Ono sideboard, he one spinal cracker He got feet down below his knee Hold you in his armchair you can feel his disease He roller-coaster, he got early warning He got muddy water, he one mojo filter He say "One and one and one is three" Got to be good-looking cuz he's so hard to see





Because Because the world is round, it turns me on Because the world is round, ahh... Because the wind is high, it blows my mind Because the wind is high, ahh... Love is old, love is new Love is all, love is you Because the sky is blue, it makes me cry Because the sky is blue, ahh...