Bad Company
1Can't Get Enough
2Rock Steady
3Ready for Love
4Bad Company
5Movin On
6Seagull
7Good Lovin Gone Bad
8Feel Like Makin Love
9Shooting Star
10Run With the Pack
11Burnin Sky
12Rock n Roll Fantasy
13Gone, Gone, Gone












Can't Get Enough well, i take whatever i want - n baby, i want you you give me something i need now tell me i got something for you c'mon... c'mon n do it c'mon... do what you do i can't get enough of your love... well it's late, and i want love - love is gonna break me in two gonna hang me up in the doorway gonna hang me up like ya do
Can't Get Enough
basic bass tab

  intro, theme
|------------------------|------------------------|
|----------------------3-|--------------3---------|
|3-----------------1-1---|------------1-----------|
|------------------------|------------------------|

|------------------------|------------------------|
|------------------------|--------------3---------|
|3-----------------1-1---|------------1-----------|
|-----------------1----1-|1-----------------------|

  verse
|------------------------| |------------------------|------------------------|
|-----------3------------|*|------------------------|------------3-----1--1--|
|3----31-1------0-01-02-0|*|3-----------------------|11-1--1--1-------3--3---|
|--------------1---------| |--13-13-13-13-13-13-13-1|--1--1--1--1------------|

  chorus
|------------------------| |------------------------|
|--------01-23-13-13-----|*|5---------555-----------|
|3-13-13-------------01-2|*|-----3--3---------------|
|------------------------| |------------------------|










Rock Steady when i want to rock steady i know i got to get ready close my eyes n i let myself go listen to, oh - baby, let the music flow turn on your light n stay with me a while n ease your worried mind turn on your light n stay with me a while n rock steady when my love gets a little bit too heavy she's mine n i got to get ready close my eyes and let myself go i listen too, yeah - and i let the music flow yeah, it's flowing now
Rock Steady
basic bass tab

  intro
|-14------12-----------------------|
|-----------------14------12\10----|
|----------------------------------|
|----------------------------------|

  verse
|------------------|------------------|
|------------------|---------5---7----|*
|-0-0-----0-0------|-0-0-5-7---7------|*
|------------------|------------------|

  chorus
|------------------|------------------|------------------|------------------|
|------------------|------------------|--------55-5-5-5/-|-7-7-7-7-7-7-75---|
|-3-3---3-3-3---3--|-5-5---555-5-5\---|------------------|---------------7\-|
|------------------|------------------|-1---1/-----------|------------------|

|------------------|------------------|------------------|------------------|
|------------------|---------3--------|-------7----------|------------------|
|-3-3---33--3---3--|-5-5--------------|------------------|------------------|
|------------------|-------1-----3/---|-5-5--------------|------------------|

  solo
|------------------|---------0---2----|
|------------------|-----0-2---2------|*
|-0-0---3-0-0---3--|-0-0----------3---|*
|------------------|------------------|










Ready for Love walkin down this rocky road wondering where my life is leadin rollin on to the bitter end finding out along the way what it takes to keep love living you should know how it feels, my friend ooh, i want you to stay ooh, i want you today i'm ready for love... now I'm on my feet again better things are bound to happen all my dues surely must be paid many miles and many tears times were hard but now they're changing you should know that i'm not afraid
Ready for Love
basic bass tab

  intro
|------------------|------------------|------------------|------------------|
|------------------|-----5-6-7--------|------------------|---------14-------|
|-0----------------|------------------|-0----------------|----14/15---------|
|------------------|------------------|------------------|------------------|

  verse
|------------------|------------------|------------------|-------------5----||------------------|
|------------------|------------------|------------------|--------5/-7------||------------------|
|-0-------------0--|-3---3-----0-3-0--|-5-----------5-0--|-3---3------------||-3----------------|2
|------------------|------------------|------------------|------------------||---0-1-0-2-0-3/4--|

|------------------|------------------|------------------|------------------|
|------------------|------------------|------------------|------------------|*
|------------------|------------------|------------------|-----3-4-5--------|*
|-5----------------|-3----------------|-2----------------|------------------|

  bridge
|------------------|------------------|------------------|------------------|
|---7---7----------|-------7----------|------------------|------------------|
|-0---0------------|-----0-----0-3-0--|-3-5-3-5----------|-3-5-3-5----------|
|------------------|-5-3--------------|------------------|-----------0-3-0--|

|------------------|------------------|------------------|------------------|
|------------------|------------------|------------------|------------------|
|------------------|-----------0-3-0--|-3---------0-3-4--|-5----------------|
|-3-5-3-5----------|-3-5-3-5----------|------------------|------------------|

  chorus
|------------------|------------------|------------------|------------------|
|------------------|------------------|------------------|------------------|*
|------------------|-----------0-3-0--|-3-5-3-5----------|-3-5-3-5----------|*
|-3-5-3-5----------|-3-5-3-5----------|------------------|-----------0-3-0--|

|------------------|------------------|------------------|------------------|
|------------------|------------------|------------------|------------------|
|-3-------2--------|-0----------------|------------------|------------------|
|------------------|---------3--------|-1----------------|-3----------------|

  riff
|----------------------------------|----------------------------------|
|------------17--19--21-21^--------|------------------9-10------------|
|----------------------------------|-------------10-11--------11-10\--|
|----------------------------------|----------------------------------|

  solo riff
|----------------------------------|
|-------14----15-14-15-14----15-14-|
|-14-15----------------------------|
|----------------------------------|











Bad Company company always on the run destiny is the rising sun i was born, six gun in my hand behind a gun, i'll make my final stand it's why they call me bad company n i can't deny bad company til the day I die... rebel souls, deserters we are called chose a gun n threw away the sword now these towns, they all know our name six gun sound is our claim to fame i can hear em say bad company n i won't deny bad company til the day I die... tell me that you are not a thief oh, but i am bad company it's the way i play dirty for dirty oh, somebody double-crossed me double-cross, double-cross we're bad company kill in cold blood
Bad Company
basic bass tab
tune down half step

  intro
|------------------|------------------|
|-17^17------------|-17^17----17/19---|
|------------------|------------------|
|------------------|------------------|

  verse
|------------------||------------------| |------------------|
|------------------||------------------|*|------------------|
|---------------5--||-7-------------5--|*|-------------7\---|
|-------------7----||-------------7----| |-0-------------3--|

  chorus
|------------------|------------------|
|------------------|------------------|
|-5---505----------|-7------57---7-7--|
|---------505------|--0----7------0---|

|------------------|------------------|------------------|
|------------------|------------------|------------------|
|---------------57-|-7-7---577-7---57-|-7-7---577-7---5--|
|-333-333-555-57---|--0--57---0--57---|--0--57---0--7----|

  riff
|------------------|-12-11------12-11-|
|------------------|-------12---------|
|-7-------755------|----------12------|
|------------------|------------------|

                            ----------|
                            ----------|
                            ----------|
  bridge                 ...------3-3-|

|------------------|------------------|
|------456777---7--|------------------|
|-555----------7-7-|-77----5-77-------|
|------------------|------7-7-----3-3-|

|------------------|------------------|
|------7-7555------|------------------|
|--------------456-|-777---5-777------|
|-5-5--------------|------7-7---------|...











Movin On i get up in the mornin n it's just another day pack up my belongings, i got to get away jump into a taxi n the time is gettin tight i got to keep on movin, i got a show tonight n I'm movin on - movin on from town to town movin on, baby - yeah i'm never touchin the ground i take it to the ticket, there's a half a dollar boat headin for the bordengate, i'm feelin pretty low fifteen minutes later, i'm sittin' on my plane fastened in my safety belt, i'm takin off again
Movin On
basic bass tab

  intro
|----------------------------------|----------------------------------|
|-----------------10------11121314\|----------------------------------|
|--------------/11-----------------|-15----------------7---8---9-1011-|
|-8--------------------------------|----------------------------------|

|----------------------------------|----------------------------------|
|---------------10--------11121314-|----------------------------------|
|------------/11-------------------|-15----------------------3---1-2--|
|-8--------------------------------|-----------------------1---1------|

  verse
|------------------|------------------|------------------|------------------|
|------------------|-------------3-5--|---5-4-3-2---2----|------------------|
|-3-3-1-0-3-0------|-------3-4-5------|-----------3---3--|-5-0-3-0-3-0---3--|
|-------------6\---|-0-3-6------------|------------------|-------------3----|

|------------------|------------------|------------------|------------------|
|------------------|-------------3-5--|---0-5-0-----3----|------------------|
|---3-1-3-0-3------|-------3-4-5------|---------5-0---0--|-3-0-5-0-6-0-0-8--|
|-------------6\---|-0-3-6------------|------------------|------------------|

  chorus
|------------------|------------------|------------------|------------------|
|-----6-7-8--------|------------------|------------------|------------------|
|-8-----------8-6--|-------6-----6-8--|------------------|--^---------------|
|-----------6------|---6-8-----8------|-8-0-8-0-8-0-6-8--|-8-006-8-6-0-8-0--|

|----------------------------------|----------------------------------|
|-------------6---8--/10--8---6----|-------------8---10--1210---------|
|-6-------8------------------------|-8-------8---------------12--10---|
|----------------------------------|----------------------------------|

|------------------|------------------|
|------------------|------------------|
|------------------|------------------|
|-8-8-8---6---6-0--|-8----------------|












Seagull seagull, you fly across the horizon into the misty morning sun nobody asks you where you are going nobody knows where you're from here is a man asking the question is this really the end of the world ? seagull, you must have known for a long time the shape of things to come now you fly, through the sky, never asking why and you fly all around til somebody shoots you down and you fly away today and you fly away tomorrow and you fly away, leave me to my sorrow. seagull go on fly fly to your tomorrow leave me to my sorrow
Seagull
bass tab

|--------------------------|
|-------------------12-----|*
|--------------------------|*
|-8-----7-----10-----------|

  coda
|--------------------------|--------------------------|
|--------------------------|-------------12-----------|
|--------------------------|--------------------------|
|-8-----------7------------|-10-----------------------|










Good Lovin Gone Bad if i hear you knocking hard upon my door ain't no way that i'm gonna answer it cuz cheating is a one thing and lying is another and when i say it's over, that's it - i'm gonna quit now i ain't complaining, just tryin to understand what makes a woman do the things she does. one day she'll love you, the next day she'll leave you why can't we have it just the way it used to be ? why can't we have it baby ? cuz i'm a man, i got my pride don't need no woman to hurt me inside i need a love, like any other so go on and leave me, leave me for another good lovin gone bad... baby I'm a bad man, now
Good Lovin Gone Bad
basic bass tab

                                      |------------------|------------------|
                                      |------------------|------------------|
                                      |------------------|-----0-5----------|
                                      |-----------0-2-3--|---3---------5-0--|
  intro, theme
|------------------|------------------|------------------|------------------|
|------------------|------------------|------------------|------------------|
|------------------|------------------|------------------|-----0-5----------|
|-5---5---5-0-5----|-5---5---5-0-5----|-5-0-5---5-0-2-3--|---3---------5-0--|

  verse
|------------------|------------------|------------------|------------------|
|------------------|------------------|------------------|------------------|*
|-------------3-5--|---5-3-0-5-0------|------------------|------------------|*
|-5-0-5-0-3-5------|-------------5-3--|---3-5-0-3-0-3-5--|---5-3-0-3-0-3-5--|

  bridge
|------------------|------------------|------------------|------------------|
|------------------|-7----------------|-11------12^------|-11---------------|
|---------5-7---9--|------------------|------------------|---12-------------|
|-5-----7----------|------------------|------------------|------------------|

                                     ||------------------|------------------|
                                     ||------------------|------------------|
                                     ||---------------3--|-5----------------|
                                     ||-3---------3-5----|-------------0-3--|

  chorus
|------------------|------------------|
|---------7-7------|------------------|
|-----5-7-----0----|-5-5--------------|
|-5----------------|-----5\--3-0-4-0--|

|------------------|------------------|
|---------7-7------|------------------|
|-----5---------0--|-5-5-4-0----------|
|-5-5--------------|---------5-0-3-4--|

|------------------|------------------|------------------|------------------|
|------------------|------------------|------------------|------------------|
|------------------|------------------|------------------|-5----------------|
|-5-----0-3-3---3--|-2-2---2-1-1----1-|-0-------3--------|------------------|











Feel Like Makin Love baby, when i think about you, i think about love darlin, donít live without you and your love if i had those golden dreams of my yesterdays i would wrap you in the heaven til iím dyin on the way feel like makin love to you baby, if i think about you, i think about love darlin, if i live without you, i live without love and if i had the sun and moon, we would shine them i would give you both night and day of satisfyin feel like makin love to you
Feel Like Makin Love
basic bass tab

  intro
|-----------7-9-10-|-11---------------|
|-0----------------|------------------|
|------------------|------------------|
|------------------|------------------|

  verse
|----------------------------------|----------------------------------|
|-----------------3----------------|---------4-5---------4-5----------|*
|-5---5---------------5-------3----|----------------------------------|*
|----------------------------------|-3---3----------------------------|

  chorus
|----------------------------------||----------------------------------|
|----------------------------------||-------------------------5--------|*
|-3-5-----.-------3-5-----.--------||-3-5-----5-------3----------------|*
|----------------------------------||----------------------------------|

                                   ||----------------------------------|--
                                   ||----------------------------------|--
                                   ||-3-5-----5-----------5-------8----|-5...
                                   ||-----------------8-------7--------|--


|-19\------|
|----------|
|----------|
|----------|











Shooting Star johnny was a schoolboy, when he heard his first beatles song love me do, I think it was, n from then it didn't take him long got himself a guitar, used to play every night now he's in a rock n roll outfit n everything's alright don't you know ? johnny told his mama - hey, mama, i'm goin away gonna hit the big time, gonna be a big star someday mama came to the door with a teardrop in her eye johnny said don't cry, mama - smile n wave goodbye don't you know ? don't you know that you are a shooting star... n all the world will love you just as long as you are johnny made a record, went straight up to number one suddenly everyone loved to hear him sing the song watchin the world go by, surprisin it goes so fast johnny looked around him n said - well, i made the big-time at last
Shooting Star
basic bass tab

  intro
|----------------|----------------|
|----7-----------|5-4-------------|
|------------7---|----7-5---------|
|----------------|----------------|

  verse
|----------------|----------------|
|7-7-------------|--------7-7-----|*
|--------7-7-----|----------------|*
|----------------|3-3-------------|

  chorus
|----------------|----------------|----------------|----------------|
|----------------|----------------|----------------|----------------|*
|7-7----57-7-705-|7-7----0777\----|5-5----0555-----|----------------|*
|----------------|----------------|-------------034|5-5----0555-----|

|----------5-7---|----------------|----------------|----------------|
|--------7-------|----------------|----------------|----------------|
|----------------|5---------------|7-7----575-----5|7-7---5677-775--|
|3---------------|----------------|-0--------75357-|--------------7\|

  solo
|----------------|----------------| |----------------|----------------|
|----------------|----------------|*|----------------|----------------|
|9-9----07-7-----|----------------|*|9-9-----9-9-----|7-7-----7---7---|
|-------------050|7-7-----7-7-----| |----------------|----------------|










Run With the Pack you never give me my money - you only give me your sympathy cuz i keep on a-runnin - there's no way to catch up with me i'm leaving you - don't make no fuss you won't even see me - oh no, for dust i'm running with the pack... never looking back you try to keep me in cages - but baby, you got to catch me first you think your law is contagious - i'll do my best, you can do your worst i'm leaving you, now who can i trust ? you won't even see me - oh no, for dust i'm running with the pack... never looking back i'm running with the pack... never looking back you can't hold me down you can't hold me back on my own way running with the pack never, never, never looking back, oh keep on running... movin on, movin out
Run With the Pack
basic bass tab

  intro
|------------------|------------------| |------------------|------------------|
|------------------|------------------|*|------------------|------------------|
|------------------|-------------5-5--|*|------------------|-----------0-5\---|
|------------------|------------------| |------------------|------------------|

  verse
|------------------|------------------|------------------|------------------|
|------------------|------------------|------------------|-----5-------7----|*
|-----3~-----------|------------------|-----3~-----------|---57------57-----|*
|-5----------------|---3-5-5---3-5-3--|-5----------------|------------------|
 

  bridge
|------------------|------------------| |------------------|------------------|--
|------------------|------------------|*|------------------|------------------|-7...
|-----9---9-----0--|-5---0-555-5---5--|*|-----9-----9-9----|----------------0-|--
|-7------7--7------|-------------7----| |-7-------7-----5--|------------------|--

  chorus
|------------------|------------------| |------------------|------------------|
|------------------|------------------|*|------------------|------------------|
|-5-----5---5------|-3-------3--------|*|-5-----5---5------|-3-------3--------|
|---------5-----5--|-------3---3------| |---------5-----5--|-------3---3-5\---|












Burnin Sky the sky is burnin - i believe my souls on fire you are, i'm learnin, the key to my desire waitin for the van to arrive the prisoners were lined up outside jumped a wall hitched a ride n now i'm here to say love you, baby, anyway run across the country fields in all the rain they had guns and dogs and every thing swam a river tryin to lose my trail but they caught me under the bridge the judge said this man's a danger to humanity we're gonna lock him up and throw away the key now baby, your love has sent me to jail but i'd rather die than see you with another man workin on the railroad every day but they can't keep me here and i'm not gonna stay i got to get outta this place - i'll see you, baby
Burnin Sky
basic bass tab

  chorus
|------------------||------------------||-----8-------7----||------------------|
|------------------||------------------||---8-------7------||---5-8---7-4------|
|------------------||-1-3---1-3--------||-6-------5--------||-6-----------5----|
|-1-3---1-3--------||------------------||------------------||------------------|

  verse
|------------------|------------------|
|------------------|------------------|
|-3-3-----1-1--/5--|-101010------8-10-|
|-------1----------|---------1010-----|

|------------------|------------------|
|-----10------8----|---------7-8-9----|
|---10------8---8--|-10---------------|
|-8-------6--------|------------------|

|------------------|------------------|------------------|
|-----5-------3----|------------------|------------------|
|-3-3---3-1-1---1--|-------------8-10-|-----10-----------|
|------------------|-3-------1010-----|-8-----6-----5^---|











Rock n Roll Fantasy here come the jesters, 1 2 3 it's all part of my fantasy i love the music n i love to see the crowd dancing in the aisles n singin out loud, yeah here come the dancers, one by one your momma's callin but you're having fun you find your dancin on the number 9 cloud put your hands together now, n sing it out loud it's all part of my rock and roll fantasy it's all part of my rock and roll dream put out the spotlights, one and all and let the feelin get down to your soul the music's so loud, you can hear the sound reaching for the sky, churnin up the ground
Rock n Roll Fantasy
basic bass tab

  verse
|------------------||------------------| |------------------|
|------------------||------------------|*|------------------|
|-7-7-7-7-7-7-7-7--||-3-3-3-3-5-5-5-5--|*|------------------|
|------------------||------------------| |-0----------------|

  chorus
|------------------|------------------|------------------|------------------|
|---5--------------|-------------4-5--|---------------7--|---7\--4---5---6--|
|-3---3-0-----2----|---2-3-5---5------|-0-0-0-0-0-0-0----|-0----------------|
|-----------3------|-3----------------|------------------|-----2---3---4----|

                                     ||------------------|------------------|
                                     ||-----7-------7----|------------------|
                                     ||-0-0---0---0---0--|-----------4-5-6--|
                                     ||------------------|-5-5-6-7----------|
  theme, guitar melody
|------------------|------------------|------------------|------------------|
|---5-5-5-4--------|------------------|---5-5-5-4--------|-----4------------|
|-----------7------|-5-7---7---7---57-|-----------7------|-5-7---57---------|
|------------------|-------------57---|-0----------------|------------------|

|------------------|------------------|------------------|------------------|
|---5-5-5-4--------|------------------|---5-5-5-4--------|-4----------------|
|-----------7------|-5-7---7---7---57-|-----------7-5-7--|---57-------------|
|------------------|-------------57---|-0----------------|------------------|

  theme, bass line
|------------------|------------------|------------------|------------------|
|------------------|------------------|------------------|-----4------------|
|---7-7---7---7----|-5---7---7--------|-7---7---7---7----|-5-7---57--7---5--|
|-------0-------0--|-------0-----5----|-------0----------|-------------5----|

|------------------|------------------|------------------|------------------|
|------------------|------------------|------------------|------------------|
|-----7---7---7----|-5---7---7-----5--|-----7---7---5----|-9--7-------------|
|-0-----0-------0--|-------0-----5----|-0---------0------|------------------|











Gone, Gone, Gone well, i been havin a litlle trouble, lord - but I'm keepin it together, yeah my baby just walked out the doors - she said this time forever it ain't the first time baby - baby it wont be the last i'd better get the boys round n do some drinkin fast cuz she's gone, gone, gone i dont know if i'm happy i don't know if i'm sad she's gone gone gone i dont know if i'll cry i dont know if i'll die laughin well I'm gonna miss your lovin n your perfume and your smile i'm gonna miss your stealin all my booze n talkin all the while i'm gonna miss you cleanin round the home n helpin with my blues you know i think i'll get myself a maid n take her on a cruise
Gone, Gone, Gone
basic bass tab

  verse
|------------------| |------------------|
|------------------|*|------------------|
|--^---^-----------|*|-----7-------7----|
|-3-0-5-0-0-0-0-0--| |-0-0---0-0-0---0--|
          x x x

              -----|
              -----|
              -----|
           ...3-5--|
  bridge
|------------------|------------------|------------------|------------------|
|------------------|------------------|------------------|------------------|
|------------------|------------------|-3-3-3-3-3-3-3-3--|-3-3-3-3-3-3-3-3--|
|-5-5-5-5-5-5-5-5--|-5-5-5-5-5-5-5-5--|------------------|------------------|

|------------------|------------------|------------------|------------------|
|------------------|------------------|------------------|------------------|
|------------------|-2-2-3-3-4-4-5-5--|-7-7-7-7-7-7-7-7--|-7-7-7-7-7-7-7-7--|
|-2-2-3-3-4-4-5-5--|------------------|------------------|------------------|

  chorus
|------------------|------------------|------------------|------------------|
|------------------|------------------|-4-4-4---4---4----|------------------|*
|-0-----2-------3--|-----3-3-3-3-3-3--|------------------|-2-2-2---2-2-1-0--|*
|------------------|------------------|------------------|------------------|